0
SECTION
2
HEADER
9
$INSUNITS
70
4
9
$ACADVER
1
AC1014
9
$HANDSEED
5
FFFF
0
ENDSEC
0
SECTION
2
TABLES
0
TABLE
2
VPORT
5
8
100
AcDbSymbolTable
0
ENDTAB
0
TABLE
2
LTYPE
5
5
100
AcDbSymbolTable
0
LTYPE
5
14
100
AcDbSymbolTableRecord
100
AcDbLinetypeTableRecord
2
BYBLOCK
70
0
0
LTYPE
5
15
100
AcDbSymbolTableRecord
100
AcDbLinetypeTableRecord
2
BYLAYER
70
0
0
LTYPE
5
16
100
AcDbSymbolTableRecord
100
AcDbLinetypeTableRecord
2
DASHED
70
0
3
Dashed __ __ __ __ __ __ __ __ __ __ __ __ __ _
72
65
73
2
40
0.75
49
0.5
74
0
49
-0.25
74
0
0
ENDTAB
0
TABLE
2
LAYER
5
2
100
AcDbSymbolTable
70
2
0
LAYER
5
50
100
AcDbSymbolTableRecord
100
AcDbLayerTableRecord
2
0
70
0
62
7
6
CONTINUOUS
0
ENDTAB
0
TABLE
2
STYLE
5
3
100
AcDbSymbolTable
70
1
0
STYLE
5
11
100
AcDbSymbolTableRecord
100
AcDbTextStyleTableRecord
2
STANDARD
70
0
0
ENDTAB
0
TABLE
2
VIEW
5
6
100
AcDbSymbolTable
70
0
0
ENDTAB
0
TABLE
2
UCS
5
7
100
AcDbSymbolTable
70
0
0
ENDTAB
0
TABLE
2
APPID
5
9
100
AcDbSymbolTable
70
2
0
APPID
5
12
100
AcDbSymbolTableRecord
100
AcDbRegAppTableRecord
2
ACAD
70
0
0
ENDTAB
0
TABLE
2
DIMSTYLE
5
A
100
AcDbSymbolTable
70
1
0
ENDTAB
0
TABLE
2
BLOCK_RECORD
5
1
100
AcDbSymbolTable
70
1
0
BLOCK_RECORD
5
1F
100
AcDbSymbolTableRecord
100
AcDbBlockTableRecord
2
*MODEL_SPACE
0
BLOCK_RECORD
5
1B
100
AcDbSymbolTableRecord
100
AcDbBlockTableRecord
2
*PAPER_SPACE
0
ENDTAB
0
ENDSEC
0
SECTION
2
BLOCKS
0
BLOCK
5
20
100
AcDbEntity
100
AcDbBlockBegin
2
*MODEL_SPACE
0
ENDBLK
5
21
100
AcDbEntity
100
AcDbBlockEnd
0
BLOCK
5
1C
100
AcDbEntity
100
AcDbBlockBegin
2
*PAPER_SPACE
0
ENDBLK
5
1D
100
AcDbEntity
100
AcDbBlockEnd
0
ENDSEC
0
SECTION
2
ENTITIES
0
POINT
5
100
100
AcDbEntity
8
0
100
AcDbPoint
10
0
20
0
30
0
0
SPLINE
5
101
100
AcDbEntity
8
0
100
AcDbSpline
70
6
71
5
72
31
73
25
74
0
42
0.000000001
43
0.0000000001
44
0.0000000001
40
0
40
0
40
0
40
0
40
0
40
0
40
0.050000000000000003
40
0.10000000000000001
40
0.15000000000000002
40
0.20000000000000001
40
0.25
40
0.29999999999999999
40
0.34999999999999998
40
0.39999999999999997
40
0.44999999999999996
40
0.49999999999999994
40
0.54999999999999993
40
0.59999999999999998
40
0.65000000000000002
40
0.70000000000000007
40
0.75000000000000011
40
0.80000000000000016
40
0.8500000000000002
40
0.90000000000000024
40
0.95000000000000029
40
1
40
1
40
1
40
1
40
1
40
1
41
1
41
1
41
1
41
1
41
1
41
1
41
1
41
1
41
1
41
1
41
1
41
1
41
1
41
1
41
1
41
1
41
1
41
1
41
1
41
1
41
1
41
1
41
1
41
1
41
1
10
-34.702682822159339
20
20.505357607598707
30
0
10
-33.394279545337355
20
20.461296314978618
30
0
10
-30.810295052814524
20
20.262986050298586
30
0
10
-27.101757393785576
20
19.646767410287275
30
0
10
-22.726604738165328
20
18.236443001775701
30
0
10
-18.28750169520778
20
15.471856837728698
30
0
10
-14.914963573084004
20
11.603747427029209
30
0
10
-12.74215093563374
20
6.3258625668661548
30
0
10
-12.363703619180255
20
-0.69845484213666775
30
0
10
-14.495501301837447
20
-8.4780771830180583
30
0
10
-19.686887298100292
20
-15.569454417938896
30
0
10
-27.819517754697362
20
-20.409945151836414
30
0
10
-38.129031232228016
20
-21.798985352107398
30
0
10
-47.922082854343145
20
-19.481643807334123
30
0
10
-55.13784325812761
20
-14.214945919158628
30
0
10
-59.33481205709748
20
-7.1868687758759435
30
0
10
-60.692959466506302
20
0.24114363468626418
30
0
10
-59.837349713505006
20
6.8907735165699124
30
0
10
-57.298689068014738
20
12.132391453798544
30
0
10
-53.17552595043918
20
16.153804615057339
30
0
10
-47.745122001407118
20
18.920838932039729
30
0
10
-42.664650922864794
20
20.151883331071257
30
0
10
-38.660714713746344
20
20.527353806019079
30
0
10
-36.011086098981323
20
20.549418900218797
30
0
10
-34.702682822159339
20
20.505357607598707
30
0
0
LINE
5
102
100
AcDbEntity
8
0
100
AcDbLine
10
-72.032260278110726
20
11.480535866156444
30
0
11
-72.032260278110726
21
0.48053586615644406
31
0
0
SPLINE
5
103
100
AcDbEntity
8
0
100
AcDbSpline
70
4
71
5
72
31
73
25
74
0
42
0.000000001
43
0.0000000001
44
0.0000000001
40
0
40
0
40
0
40
0
40
0
40
0
40
0.050000000000000003
40
0.10000000000000001
40
0.15000000000000002
40
0.20000000000000001
40
0.25
40
0.29999999999999999
40
0.34999999999999998
40
0.39999999999999997
40
0.44999999999999996
40
0.49999999999999994
40
0.54999999999999993
40
0.59999999999999998
40
0.65000000000000002
40
0.70000000000000007
40
0.75000000000000011
40
0.80000000000000016
40
0.8500000000000002
40
0.90000000000000024
40
0.95000000000000029
40
1
40
1
40
1
40
1
40
1
40
1
41
1
41
1
41
1
41
1
41
1
41
1
41
1
41
1
41
1
41
1
41
1
41
1
41
1
41
1
41
1
41
1
41
1
41
1
41
1
41
1
41
1
41
1
41
1
41
1
41
1
10
-72.032260278110726
20
11.480535866156444
30
0
10
-71.448998463072655
20
11.559483897380485
30
0
10
-70.300530415133395
20
11.713844997505058
30
0
10
-68.631937133271052
20
11.934727041804331
30
0
10
-66.533526405173703
20
12.259439908403385
30
0
10
-64.164001011019124
20
12.961111717015443
30
0
10
-62.00940384945153
20
14.195404915566478
30
0
10
-59.841036796158832
20
16.037046046714927
30
0
10
-57.217809017305697
20
18.326185971080847
30
0
10
-53.685119470450211
20
20.763375907314611
30
0
10
-48.888750188251564
20
22.973680490048171
30
0
10
-42.80689612812629
20
24.567617633128165
30
0
10
-35.748696915690338
20
25.234373972187967
30
0
10
-28.91592617520168
20
24.746796637045556
30
0
10
-23.261194000293077
20
23.255070540296508
30
0
10
-19.067006822224954
20
21.217197042497787
30
0
10
-16.261637330760074
20
19.218509685469979
30
0
10
-14.395920245460674
20
17.846000241357135
30
0
10
-12.827782445880525
20
17.527467837653003
30
0
10
-10.628137613174118
20
18.4188454287751
30
0
10
-7.5976765212572115
20
19.995062967906129
30
0
10
-4.6762276095836413
20
21.161927148049998
30
0
10
-2.3618531623151084
20
21.642239463644017
30
0
10
-0.79180410207880636
20
21.738073203250913
30
0
10
0
20
21.729884576990667
30
0
0
LINE
5
104
100
AcDbEntity
8
0
100
AcDbLine
10
0
20
0
30
0
11
0
21
34.063593281921932
31
0
0
SPLINE
5
105
100
AcDbEntity
8
0
100
AcDbSpline
70
4
71
5
72
61
73
55
74
0
42
0.000000001
43
0.0000000001
44
0.0000000001
40
0
40
0
40
0
40
0
40
0
40
0
40
0.02
40
0.040000000000000001
40
0.059999999999999998
40
0.080000000000000002
40
0.10000000000000001
40
0.12000000000000001
40
0.14000000000000001
40
0.16
40
0.17999999999999999
40
0.19999999999999998
40
0.21999999999999997
40
0.23999999999999996
40
0.25999999999999995
40
0.27999999999999997
40
0.29999999999999999
40
0.32000000000000001
40
0.34000000000000002
40
0.36000000000000004
40
0.38000000000000006
40
0.40000000000000008
40
0.4200000000000001
40
0.44000000000000011
40
0.46000000000000013
40
0.48000000000000015
40
0.50000000000000011
40
0.52000000000000013
40
0.54000000000000015
40
0.56000000000000016
40
0.58000000000000018
40
0.6000000000000002
40
0.62000000000000022
40
0.64000000000000024
40
0.66000000000000025
40
0.68000000000000027
40
0.70000000000000029
40
0.72000000000000031
40
0.74000000000000032
40
0.76000000000000034
40
0.78000000000000036
40
0.80000000000000038
40
0.8200000000000004
40
0.84000000000000041
40
0.86000000000000043
40
0.88000000000000045
40
0.90000000000000047
40
0.92000000000000048
40
0.9400000000000005
40
0.96000000000000052
40
0.98000000000000054
40
1
40
1
40
1
40
1
40
1
40
1
41
1
41
1
41
1
41
1
41
1
41
1
41
1
41
1
41
1
41
1
41
1
41
1
41
1
41
1
41
1
41
1
41
1
41
1
41
1
41
1
41
1
41
1
41
1
41
1
41
1
41
1
41
1
41
1
41
1
41
1
41
1
41
1
41
1
41
1
41
1
41
1
41
1
41
1
41
1
41
1
41
1
41
1
41
1
41
1
41
1
41
1
41
1
41
1
41
1
41
1
41
1
41
1
41
1
41
1
41
1
10
-72.032260278110726
20
0.48053586615644406
30
0
10
-71.524533060034955
20
0.38100652536508078
30
0
10
-70.551724483527181
20
0.16681741316294851
30
0
10
-69.220449017173777
20
-0.19985507787377349
30
0
10
-67.701458184050807
20
-0.77960987059392628
30
0
10
-66.214759265404666
20
-1.6626946658803086
30
0
10
-65.09432670252562
20
-2.7248709349540463
30
0
10
-64.247200988446252
20
-4.0064369532228579
30
0
10
-63.51735237934021
20
-5.5755697781461055
30
0
10
-62.66585741498703
20
-7.5344590154657451
30
0
10
-61.509491023465792
20
-9.8610921801537117
30
0
10
-59.900476319155857
20
-12.463384858506251
30
0
10
-57.737892332763096
20
-15.188979000476895
30
0
10
-54.966913201069154
20
-17.852330454557727
30
0
10
-51.583267112947155
20
-20.254190016478528
30
0
10
-47.635857113585359
20
-22.204565474494132
30
0
10
-43.229749385711678
20
-23.543585870099317
30
0
10
-38.530546367377312
20
-24.164770387667424
30
0
10
-33.764974610799378
20
-24.034012337808406
30
0
10
-29.235307380229621
20
-23.220564325087963
30
0
10
-25.128079612385797
20
-21.819690943572812
30
0
10
-21.556290207694737
20
-19.952267124410433
30
0
10
-18.562213525263061
20
-17.75379631465151
30
0
10
-16.134998255024534
20
-15.367354219259404
30
0
10
-14.221794971934113
20
-12.934898672110373
30
0
10
-12.741545603009307
20
-10.589318954950148
30
0
10
-11.597470637840932
20
-8.4460893352321893
30
0
10
-10.690167731078457
20
-6.5951925948043799
30
0
10
-9.9301393410516905
20
-5.092526907827799
30
0
10
-9.2513324890967681
20
-3.9522172507473559
30
0
10
-8.6143214040506404
20
-3.1359930784330468
30
0
10
-8.007610681590311
20
-2.5470877554524818
30
0
10
-7.4508395722542691
20
-2.0130060904539722
30
0
10
-6.9942946389981122
20
-1.2952265747343668
30
0
10
-6.6871900126556136
20
-0.19243706415620357
30
0
10
-6.5407535445101805
20
1.2637026238846985
30
0
10
-6.5141041016209673
20
2.9049045489840308
30
0
10
-6.582338487920806
20
4.5151789814824985
30
0
10
-6.7334646407964582
20
5.8548382720919792
30
0
10
-7.0947701412798692
20
6.5581638402639637
30
0
10
-7.7638471685001722
20
6.4466260298494529
30
0
10
-8.4089696973843804
20
6.1505286731871767
30
0
10
-8.9569121861971652
20
6.1730453865100525
30
0
10
-9.4581941990543559
20
6.8314035623268454
30
0
10
-9.85284047706363
20
8.1120202277827005
30
0
10
-9.9780676017072398
20
9.7597417864785623
30
0
10
-9.6790293436887218
20
11.444577396023057
30
0
10
-8.8727431605752347
20
12.886452287405479
30
0
10
-7.6686311318446068
20
14.045320135103083
30
0
10
-6.1372842557237224
20
14.912178094136108
30
0
10
-4.3354259694584236
20
15.508259461042996
30
0
10
-2.7068476801870887
20
15.794844572647273
30
0
10
-1.3898501204589664
20
15.917042044275808
30
0
10
-0.47022070346128531
20
15.959324302052085
30
0
10
0
20
15.970670634966023
30
0
0
LINE
5
106
100
AcDbEntity
8
0
100
AcDbLine
10
-65.43994606815275
20
12.6426051642697
30
0
11
-58.801247431962068
21
8.3482258628280768
31
0
0
LINE
5
107
100
AcDbEntity
8
0
100
AcDbLine
10
-66.55811699966614
20
-1.5277485433742466
30
0
11
-60.153795245743652
21
0.51494836985425285
31
0
0
LINE
5
108
100
AcDbEntity
8
0
100
AcDbLine
10
-13.39310070327441
20
17.80283631929996
30
0
11
-16.528574600522838
21
13.1230222865816
31
0
0
LINE
5
109
100
AcDbEntity
8
0
100
AcDbLine
10
-9.5347898154872297
20
7.2385635543919067
30
0
11
-13.312713110912055
21
6.4616715124575279
31
0
0
LINE
5
110
100
AcDbEntity
8
0
100
AcDbLine
10
-10.625794887894216
20
-6.4802592904486538
30
0
11
-14.047980320858214
21
-5.434455487894807
31
0
0
LWPOLYLINE
5
111
100
AcDbEntity
8
0
100
AcDbPolyline
90
4
70
1
43
0.0
10
-63.032260278110726
20
8.2305358661564458
42
0.74285714285714277
10
-66.532260278110726
20
8.2305358661564458
10
-66.532260278110726
20
3.7305358661564449
42
0.74285714285714466
10
-63.032260278110726
20
3.7305358661564449
0
LINE
5
112
100
AcDbEntity
8
0
100
AcDbLine
10
-66.532260278110726
20
5.9805358661564458
30
0
11
-72.032260278110726
21
5.9805358661564441
31
0
6
DASHED
0
ENDSEC
0
SECTION
2
OBJECTS
0
DICTIONARY
5
C
100
AcDbDictionary
3
ACAD_GROUP
350
D
3
ACAD_MLINESTYLE
350
17
0
DICTIONARY
5
D
100
AcDbDictionary
0
DICTIONARY
5
1A
330
C
100
AcDbDictionary
0
DICTIONARY
5
17
100
AcDbDictionary
0
ENDSEC
0
EOF
